  0
SECTION
  2
HEADER
  9
$ACADVER
  1
AC1009
  9
$INSBASE
 10
0.0
 20
0.0
 30
0.0
  9
$EXTMIN
 10
-7275.398937
 20
-5426.252194
 30
-0.001526
  9
$EXTMAX
 10
12665.127921
 20
6321.776883
 30
0.0
  9
$LIMMIN
 10
0.0
 20
0.0
  9
$LIMMAX
 10
420.0
 20
297.0
  9
$ORTHOMODE
 70
     1
  9
$REGENMODE
 70
     1
  9
$FILLMODE
 70
     1
  9
$QTEXTMODE
 70
     0
  9
$MIRRTEXT
 70
     1
  9
$DRAGMODE
 70
     2
  9
$LTSCALE
 40
10.0
  9
$OSMODE
 70
   691
  9
$ATTMODE
 70
     1
  9
$TEXTSIZE
 40
300.0
  9
$TRACEWID
 40
1.0
  9
$TEXTSTYLE
  7
STANDARD
  9
$CLAYER
  8
MARGENS
  9
$CELTYPE
  6
BYLAYER
  9
$CECOLOR
 62
   256
  9
$DIMSCALE
 40
1.0
  9
$DIMASZ
 40
150.0
  9
$DIMEXO
 40
2.0
  9
$DIMDLI
 40
10.0
  9
$DIMRND
 40
0.0
  9
$DIMDLE
 40
0.0
  9
$DIMEXE
 40
2.0
  9
$DIMTP
 40
0.07
  9
$DIMTM
 40
0.07
  9
$DIMTXT
 40
3.0
  9
$DIMCEN
 40
3.0
  9
$DIMTSZ
 40
0.0
  9
$DIMTOL
 70
     0
  9
$DIMLIM
 70
     0
  9
$DIMTIH
 70
     0
  9
$DIMTOH
 70
     0
  9
$DIMSE1
 70
     0
  9
$DIMSE2
 70
     0
  9
$DIMTAD
 70
     3
  9
$DIMZIN
 70
    12
  9
$DIMBLK
  1

  9
$DIMASO
 70
     1
  9
$DIMSHO
 70
     1
  9
$DIMPOST
  1

  9
$DIMAPOST
  1

  9
$DIMALT
 70
     0
  9
$DIMALTD
 70
     2
  9
$DIMALTF
 40
25.4
  9
$DIMLFAC
 40
1.0
  9
$DIMTOFL
 70
     0
  9
$DIMTVP
 40
0.0
  9
$DIMTIX
 70
     0
  9
$DIMSOXD
 70
     0
  9
$DIMSAH
 70
     1
  9
$DIMBLK1
  1
_DOT
  9
$DIMBLK2
  1
_DOT
  9
$DIMSTYLE
  2
LDTM
  9
$DIMCLRD
 70
     1
  9
$DIMCLRE
 70
     1
  9
$DIMCLRT
 70
     3
  9
$DIMTFAC
 40
1.0
  9
$DIMGAP
 40
1.0
  9
$LUNITS
 70
     2
  9
$LUPREC
 70
     4
  9
$SKETCHINC
 40
1.0
  9
$FILLETRAD
 40
100.0
  9
$AUNITS
 70
     0
  9
$AUPREC
 70
     0
  9
$MENU
  1
.
  9
$ELEVATION
 40
0.0
  9
$PELEVATION
 40
0.0
  9
$THICKNESS
 40
0.0
  9
$LIMCHECK
 70
     0
  9
$BLIPMODE
 70
     0
  9
$CHAMFERA
 40
600.0
  9
$CHAMFERB
 40
200.0
  9
$SKPOLY
 70
     0
  9
$TDCREATE
 40
2451471.381275
  9
$TDUPDATE
 40
2451522.695516
  9
$TDINDWG
 40
0.147074
  9
$TDUSRTIMER
 40
0.147074
  9
$USRTIMER
 70
     1
  9
$ANGBASE
 50
0.0
  9
$ANGDIR
 70
     0
  9
$PDMODE
 70
     0
  9
$PDSIZE
 40
0.0
  9
$PLINEWID
 40
0.0
  9
$COORDS
 70
     1
  9
$SPLFRAME
 70
     0
  9
$SPLINETYPE
 70
     6
  9
$SPLINESEGS
 70
     8
  9
$ATTDIA
 70
     0
  9
$ATTREQ
 70
     1
  9
$HANDLING
 70
     1
  9
$HANDSEED
  5
C2D
  9
$SURFTAB1
 70
     6
  9
$SURFTAB2
 70
     6
  9
$SURFTYPE
 70
     6
  9
$SURFU
 70
     6
  9
$SURFV
 70
     6
  9
$UCSNAME
  2

  9
$UCSORG
 10
0.0
 20
0.0
 30
0.0
  9
$UCSXDIR
 10
1.0
 20
0.0
 30
0.0
  9
$UCSYDIR
 10
0.0
 20
1.0
 30
0.0
  9
$PUCSNAME
  2

  9
$PUCSORG
 10
0.0
 20
0.0
 30
0.0
  9
$PUCSXDIR
 10
1.0
 20
0.0
 30
0.0
  9
$PUCSYDIR
 10
0.0
 20
1.0
 30
0.0
  9
$USERI1
 70
     0
  9
$USERI2
 70
     0
  9
$USERI3
 70
     0
  9
$USERI4
 70
     0
  9
$USERI5
 70
     0
  9
$USERR1
 40
0.0
  9
$USERR2
 40
0.0
  9
$USERR3
 40
0.0
  9
$USERR4
 40
0.0
  9
$USERR5
 40
0.0
  9
$WORLDVIEW
 70
     1
  9
$SHADEDGE
 70
     3
  9
$SHADEDIF
 70
    70
  9
$TILEMODE
 70
     1
  9
$MAXACTVP
 70
    48
  9
$PLIMCHECK
 70
     0
  9
$PEXTMIN
 10
1.000000E+020
 20
1.000000E+020
 30
1.000000E+020
  9
$PEXTMAX
 10
-1.000000E+020
 20
-1.000000E+020
 30
-1.000000E+020
  9
$PLIMMIN
 10
0.0
 20
0.0
  9
$PLIMMAX
 10
420.0
 20
297.0
  9
$UNITMODE
 70
     0
  9
$VISRETAIN
 70
     1
  9
$PLINEGEN
 70
     0
  9
$PSLTSCALE
 70
     1
  0
ENDSEC
  0
SECTION
  2
TABLES
  0
TABLE
  2
VPORT
 70
     2
  0
VPORT
  2
*ACTIVE
 70
     0
 10
0.0
 20
0.0
 11
1.0
 21
1.0
 12
2694.864484
 22
-742.77132
 13
0.0
 23
0.0
 14
10.0
 24
10.0
 15
10.0
 25
10.0
 16
0.0
 26
0.0
 36
1.0
 17
0.0
 27
0.0
 37
0.0
 40
11937.513436
 41
1.889488
 42
50.0
 43
0.0
 44
0.0
 50
0.0
 51
0.0
 71
     0
 72
   100
 73
     1
 74
     0
 75
     0
 76
     0
 77
     0
 78
     0
  0
ENDTAB
  0
TABLE
  2
LTYPE
 70
     2
  0
LTYPE
  2
CONTINUOUS
 70
     0
  3
Solid line
 72
    65
 73
     0
 40
0.0
  0
LTYPE
  2
DASHDOT
 70
     0
  3
Dash dot __ . __ . __ . __ . __ . __ . __ . __
 72
    65
 73
     4
 40
1.0
 49
0.5
 49
-0.25
 49
0.0
 49
-0.25
  0
ENDTAB
  0
TABLE
  2
LAYER
 70
    11
  0
LAYER
  2
0
 70
     0
 62
     2
  6
CONTINUOUS
  0
LAYER
  2
COTAS
 70
     0
 62
     1
  6
CONTINUOUS
  0
LAYER
  2
MARGENS
 70
     0
 62
     6
  6
CONTINUOUS
  0
LAYER
  2
TITULO
 70
     0
 62
     7
  6
CONTINUOUS
  0
LAYER
  2
LISTA
 70
     0
 62
     1
  6
CONTINUOUS
  0
LAYER
  2
TEXTOS
 70
     0
 62
     3
  6
CONTINUOUS
  0
LAYER
  2
FORMATO
 70
     0
 62
     7
  6
CONTINUOUS
  0
LAYER
  2
ACHURA
 70
     0
 62
     1
  6
CONTINUOUS
  0
LAYER
  2
LOGOTIPO
 70
     0
 62
     4
  6
CONTINUOUS
  0
LAYER
  2
CENTRO
 70
     0
 62
     1
  6
DASHDOT
  0
LAYER
  2
DEFPOINTS
 70
     0
 62
     7
  6
CONTINUOUS
  0
ENDTAB
  0
TABLE
  2
STYLE
 70
     4
  0
STYLE
  2
STANDARD
 70
     0
 40
300.0
 41
1.0
 50
0.0
 71
     0
 42
300.0
  3
txt.shx
  4

  0
STYLE
  2
COEMSA
 70
     0
 40
0.0
 41
1.0
 50
0.0
 71
     0
 42
2.0
  3
ROMANS.shx
  4

  0
STYLE
  2
GERDAU
 70
     0
 40
0.0
 41
1.0
 50
0.0
 71
     0
 42
3.0
  3
ROMANS.SHX
  4

  0
STYLE
  2
LCOTAS
 70
     0
 40
0.0
 41
1.0
 50
0.0
 71
     0
 42
3.0
  3
ROMANS
  4

  0
ENDTAB
  0
TABLE
  2
VIEW
 70
     0
  0
ENDTAB
  0
TABLE
  2
UCS
 70
     0
  0
ENDTAB
  0
TABLE
  2
APPID
 70
     1
  0
APPID
  2
ACAD
 70
     0
  0
ENDTAB
  0
TABLE
  2
DIMSTYLE
 70
     2
  0
DIMSTYLE
  2
STANDARD
 70
     0
  3

  4

  5

  6

  7

 40
1.0
 41
2.5
 42
0.625
 43
3.75
 44
1.25
 45
0.0
 46
0.0
 47
0.0
 48
0.0
140
2.5
141
2.5
142
0.0
143
0.0394
144
1.0
145
0.0
146
1.0
147
0.625
 71
     0
 72
     0
 73
     0
 74
     0
 75
     0
 76
     0
 77
     1
 78
     8
170
     0
171
     4
172
     1
173
     0
174
     0
175
     0
176
     0
177
     0
178
     0
  0
DIMSTYLE
  2
LDTM
 70
     0
  3

  4

  5

  6

  7

 40
1.0
 41
3.0
 42
2.0
 43
10.0
 44
2.0
 45
0.0
 46
0.0
 47
0.07
 48
0.07
140
3.0
141
3.0
142
0.0
143
25.4
144
1.0
145
0.0
146
1.0
147
1.0
 71
     0
 72
     0
 73
     0
 74
     0
 75
     0
 76
     0
 77
     3
 78
    12
170
     0
171
     2
172
     0
173
     0
174
     0
175
     0
176
     1
177
     1
178
     3
  0
ENDTAB
  0
ENDSEC
  0
SECTION
  2
BLOCKS
  0
BLOCK
  8
0
  2
$MODEL_SPACE
 70
     0
 10
0.0
 20
0.0
 30
0.0
  3
$MODEL_SPACE
  1

  0
ENDBLK
  5
1A
  8
0
  0
BLOCK
 67
     1
  8
0
  2
$PAPER_SPACE
 70
     0
 10
0.0
 20
0.0
 30
0.0
  3
$PAPER_SPACE
  1

  0
ENDBLK
  5
17
 67
     1
  8
0
  0
BLOCK
  8
0
  2
LISTA
 70
     2
 10
0.0
 20
0.0
 30
0.0
  3
LISTA
  1

  0
ATTDEF
  5
8EE
  8
LISTA
  6
CONTINUOUS
 62
     3
 10
4.593101
 20
8.404
 30
0.0
 40
5.0
  1

  7
COEMSA
 72
     1
 11
4.593101
 21
10.904
 31
0.0
  3
Posicao
  2
P
 70
     0
 74
     2
  0
ATTDEF
  5
8EF
  8
LISTA
  6
CONTINUOUS
 62
     3
 10
9.042485
 20
11.662251
 30
0.0
 40
3.75
  1

  7
COEMSA
  3
Denominacao
  2
DENOMINACAO
 70
     0
  0
ATTDEF
  5
8F0
  8
LISTA
  6
CONTINUOUS
 62
     3
 10
9.054133
 20
6.600818
 30
0.0
 40
3.75
  1

  7
COEMSA
  3
Dimensoes
  2
DIMENSOES
 70
     0
  0
ATTDEF
  5
8F1
  8
LISTA
  6
CONTINUOUS
 62
     3
 10
100.585825
 20
11.712697
 30
0.0
 40
3.75
  1

  7
COEMSA
 72
     1
 11
100.585825
 21
13.587697
 31
0.0
  3
Desenho
  2
DESENHO
 70
     0
 74
     2
  0
ATTDEF
  5
8F2
  8
LISTA
  6
CONTINUOUS
 62
     3
 10
101.086001
 20
6.598868
 30
0.0
 40
3.75
  1

  7
COEMSA
 72
     1
 11
101.086001
 21
8.473868
 31
0.0
  3
Material
  2
MATERIAL
 70
     0
 74
     2
  0
ATTDEF
  5
8F3
  8
LISTA
  6
CONTINUOUS
 62
     3
 10
121.208895
 20
8.592354
 30
0.0
 40
5.0
  1
1
  7
COEMSA
 72
     1
 11
123.232705
 21
11.092354
 31
0.0
  3
Quantidade
  2
Q
 70
     0
 74
     2
  0
ATTDEF
  5
8F4
  8
LISTA
  6
CONTINUOUS
 62
     3
 10
137.498326
 20
8.493019
 30
0.0
 40
5.0
  1

  7
COEMSA
 72
     1
 11
137.498326
 21
10.993019
 31
0.0
  3
Peso 
  2
PESO
 70
     0
 74
     2
  0
ATTDEF
  5
8F5
  8
LISTA
  6
CONTINUOUS
 62
     3
 10
172.14284
 20
8.755142
 30
0.0
 40
5.0
  1

  7
COEMSA
 72
     1
 11
172.14284
 21
11.255142
 31
0.0
  3
Aplicacao
  2
APLICACAO
 70
     0
 74
     2
  0
ENDBLK
  5
8F6
  8
0
  0
BLOCK
  8
0
  2
LEGENDA
 70
     2
 10
0.0
 20
0.0
 30
0.0
  3
LEGENDA
  1

  0
ATTDEF
  5
2C
  8
TITULO
  6
CONTINUOUS
 62
     7
 10
-410.505245
 20
49.943192
 30
0.0
 40
11.25
  1

  7
GERDAU
  3
Titulo L1
  2
TIT-L1
 70
     0
  0
ATTDEF
  5
2D
  8
TITULO
  6
CONTINUOUS
 62
     7
 10
-410.505245
 20
34.669723
 30
0.0
 40
11.25
  1

  7
GERDAU
  3
Titulo L2
  2
TIT-L2
 70
     0
  0
ATTDEF
  5
2E
  8
TITULO
  6
CONTINUOUS
 62
     7
 10
-410.505245
 20
19.805091
 30
0.0
 40
11.25
  1

  7
GERDAU
  3
Titulo L3
  2
TIT-L3
 70
     0
  0
ATTDEF
  5
2F
  8
TITULO
  6
CONTINUOUS
 62
     4
 10
-438.850179
 20
4.526216
 30
0.0
 40
6.25
  1

  7
GERDAU
  3
ESCALA
  2
1:1
 70
     0
  0
ATTDEF
  5
30
  8
TITULO
  6
CONTINUOUS
 62
     4
 10
-348.015421
 20
4.526216
 30
0.0
 40
6.25
  1

  7
GERDAU
  3
VINCULADO A:
  2
42619012
 70
     0
  0
ATTDEF
  5
31
  8
TITULO
  6
CONTINUOUS
 62
     4
 10
-259.749563
 20
4.526216
 30
0.0
 40
6.25
  1

  7
GERDAU
  3
FOLHA:
  2
1
 70
     0
  0
ATTDEF
  5
32
  8
TITULO
  6
CONTINUOUS
 62
     4
 10
-226.7563
 20
4.526216
 30
0.0
 40
6.25
  1

  7
GERDAU
  3
DE:
  2
1
 70
     0
  0
ATTDEF
  5
33
  8
TITULO
  6
CONTINUOUS
 62
     7
 10
-103.766084
 20
44.100646
 30
0.0
 40
11.25
  1

  7
GERDAU
 72
     1
 11
-103.766084
 21
49.725646
 31
0.0
  3
Num. do Desenho
  2
DES
 70
     0
 74
     2
  0
ATTDEF
  5
34
  8
TITULO
  6
CONTINUOUS
 62
     3
 10
-9.734573
 20
40.355443
 30
0.0
 40
8.75
  1

  7
GERDAU
 72
     1
 11
-9.734573
 21
44.730443
 31
0.0
  3
Revisao
  2
R
 70
     0
 74
     2
  0
ATTDEF
  5
35
  8
TITULO
  6
CONTINUOUS
 62
     4
 10
-120.549584
 20
23.276216
 30
0.0
 40
6.25
  1

  7
GERDAU
  3
CLIENTE
  2
CLIENTE
 70
     0
  0
ATTDEF
  5
36
  8
TITULO
  6
CONTINUOUS
 62
     4
 10
-78.05665
 20
4.526216
 30
0.0
 40
6.25
  1

  7
GERDAU
  3
REVISÃO:
  2
A
 70
     0
  0
ATTDEF
  5
37
  8
TITULO
  6
CONTINUOUS
 62
     1
 10
-283.12251
 20
78.361902
 30
0.0
 40
5.0
  1
0
  7
GERDAU
 72
     4
 11
-280.741557
 21
80.861902
 31
0.0
  3
Revisao
  2
R
 70
     0
  0
ATTDEF
  5
38
  8
TITULO
  6
CONTINUOUS
 62
     1
 10
-231.898933
 20
78.361902
 30
0.0
 40
5.0
  1
EMISSAO
  7
GERDAU
 72
     4
 11
-216.184647
 21
80.861902
 31
0.0
  3
Texto Rev.
  2
TEXTO
 70
     0
  0
ATTDEF
  5
39
  8
TITULO
  6
CONTINUOUS
 62
     1
 10
-138.472752
 20
77.948506
 30
0.0
 40
5.0
  1

 41
2.328678
  7
GERDAU
 72
     5
 11
-106.869261
 21
77.948506
 31
0.0
  3
Desenho
  2
DES
 70
     0
  0
ATTDEF
  5
3A
  8
TITULO
  6
CONTINUOUS
 62
     1
 10
-33.735976
 20
77.788829
 30
0.0
 40
5.0
  1

 41
1.887861
  7
GERDAU
 72
     5
 11
-1.372643
 21
77.788829
 31
0.0
  3
Data
  2
DATA
 70
     0
  0
ENDBLK
  5
3C
  8
0
  0
BLOCK
  8
0
  2
_DOT
 70
     0
 10
0.0
 20
0.0
 30
0.0
  3
_DOT
  1

  0
POLYLINE
  5
AA6
  8
0
  6
BYBLOCK
 62
     0
 66
     1
 10
0.0
 20
0.0
 30
0.0
 70
     1
 40
0.5
 41
0.5
  0
VERTEX
  5
AA7
  8
0
  6
BYBLOCK
 62
     0
 10
-0.25
 20
0.0
 30
0.0
 42
1.0
  0
VERTEX
  5
AA8
  8
0
  6
BYBLOCK
 62
     0
 10
0.25
 20
0.0
 30
0.0
 42
1.0
  0
SEQEND
  5
AA9
  8
0
  6
BYBLOCK
 62
     0
  0
LINE
  5
AAA
  8
0
  6
BYBLOCK
 62
     0
 10
-0.5
 20
0.0
 30
0.0
 11
-1.0
 21
0.0
 31
0.0
  0
ENDBLK
  5
AAB
  8
0
  0
ENDSEC
  0
SECTION
  2
ENTITIES
  0
TEXT
  5
462
  8
LOGOTIPO
 10
1159.003046
 20
267.140114
 30
0.0
 40
3.0
  1

  0
POLYLINE
  5
990
  8
MARGENS
 62
     7
 66
     1
 10
0.0
 20
0.0
 30
0.0
 70
     1
  0
VERTEX
  5
BAE
  8
MARGENS
 62
     7
 10
167.762343
 20
1604.292363
 30
0.0
  0
VERTEX
  5
BAF
  8
MARGENS
 62
     7
 10
1090.248972
 20
1604.292363
 30
0.0
  0
VERTEX
  5
BB0
  8
MARGENS
 62
     7
 10
1090.248972
 20
1031.276727
 30
0.0
  0
VERTEX
  5
BB1
  8
MARGENS
 62
     7
 10
167.762343
 20
1031.276727
 30
0.0
  0
SEQEND
  5
BB2
  8
MARGENS
 62
     7
  0
LINE
  5
991
  8
MARGENS
 62
     7
 10
359.009571
 20
1031.276727
 30
0.0
 11
359.009571
 21
536.910299
 31
0.0
  0
LINE
  5
992
  8
MARGENS
 62
     7
 10
899.001745
 20
1031.276727
 30
0.0
 11
899.001745
 21
536.910299
 31
0.0
  0
LINE
  5
993
  8
MARGENS
 62
     7
 10
359.009571
 20
536.910299
 30
0.0
 11
899.001745
 21
536.910299
 31
0.0
  0
LINE
  5
994
  8
MARGENS
 62
     7
 10
359.009571
 20
536.910299
 30
0.0
 11
359.009571
 21
87.486273
 31
0.0
  0
LINE
  5
996
  8
MARGENS
 62
     7
 10
359.009571
 20
87.486273
 30
0.0
 11
527.757126
 21
87.486273
 31
0.0
  0
LINE
  5
997
  8
MARGENS
 62
     7
 10
527.757126
 20
87.486273
 30
0.0
 11
527.757126
 21
536.910299
 31
0.0
  0
LINE
  5
998
  8
MARGENS
 62
     7
 10
730.25419
 20
87.486273
 30
0.0
 11
730.25419
 21
536.910299
 31
0.0
  0
LINE
  5
999
  8
MARGENS
 62
     7
 10
899.001745
 20
536.910299
 30
0.0
 11
899.001745
 21
87.486273
 31
0.0
  0
LINE
  5
99A
  8
MARGENS
 62
     7
 10
899.001745
 20
87.486273
 30
0.0
 11
730.25419
 21
87.486273
 31
0.0
  0
LINE
  5
99B
  8
MARGENS
 62
     7
 10
527.757126
 20
312.198286
 30
0.0
 11
730.25419
 21
312.198286
 31
0.0
  0
LINE
  5
99C
  8
MARGENS
 62
     7
 10
527.757126
 20
87.486273
 30
0.0
 11
730.25419
 21
87.486273
 31
0.0
  0
LINE
  5
99D
  8
MARGENS
 62
     7
 10
443.383348
 20
87.486273
 30
0.0
 11
443.383348
 21
-2037.162776
 31
0.0
  0
LINE
  5
99E
  8
MARGENS
 62
     7
 10
814.627967
 20
87.486273
 30
0.0
 11
814.627967
 21
-2037.162776
 31
0.0
  0
LINE
  5
99F
  8
MARGENS
 62
     7
 10
359.009571
 20
-2980.95323
 30
0.0
 11
359.009571
 21
-2486.586803
 31
0.0
  0
LINE
  5
9A0
  8
MARGENS
 62
     7
 10
899.001745
 20
-2980.95323
 30
0.0
 11
899.001745
 21
-2486.586803
 31
0.0
  0
LINE
  5
9A1
  8
MARGENS
 62
     7
 10
359.009571
 20
-2037.162776
 30
0.0
 11
527.757126
 21
-2037.162776
 31
0.0
  0
LINE
  5
9A2
  8
MARGENS
 62
     7
 10
899.001745
 20
-2486.586803
 30
0.0
 11
359.009571
 21
-2486.586803
 31
0.0
  0
LINE
  5
9A3
  8
MARGENS
 62
     7
 10
527.757126
 20
-2037.162776
 30
0.0
 11
527.757126
 21
-2486.586803
 31
0.0
  0
LINE
  5
9A4
  8
MARGENS
 62
     7
 10
730.25419
 20
-2037.162776
 30
0.0
 11
730.25419
 21
-2486.586803
 31
0.0
  0
LINE
  5
9A5
  8
MARGENS
 62
     7
 10
899.001745
 20
-2486.586803
 30
0.0
 11
899.001745
 21
-2037.162776
 31
0.0
  0
LINE
  5
9A6
  8
MARGENS
 62
     7
 10
730.25419
 20
-2037.162776
 30
0.0
 11
527.757126
 21
-2037.162776
 31
0.0
  0
LINE
  5
9A7
  8
MARGENS
 62
     7
 10
730.25419
 20
-2261.874789
 30
0.0
 11
527.757126
 21
-2261.874789
 31
0.0
  0
LINE
  5
9A8
  8
MARGENS
 62
     7
 10
899.001745
 20
-2037.162776
 30
0.0
 11
730.25419
 21
-2037.162776
 31
0.0
  0
LINE
  5
9A9
  8
MARGENS
 62
     7
 10
359.009571
 20
-2486.586803
 30
0.0
 11
359.009571
 21
-2037.162776
 31
0.0
  0
LINE
  5
9AA
  8
MARGENS
 62
     7
 10
333.336866
 20
1604.292363
 30
0.0
 11
-777.223964
 21
1604.292363
 31
0.0
  0
LINE
  5
9AB
  8
MARGENS
 62
     7
 10
924.674449
 20
1604.292363
 30
0.0
 11
2035.23528
 21
1604.292363
 31
0.0
  0
LINE
  5
9AC
  8
MARGENS
 62
     7
 10
-777.223964
 20
1604.292363
 30
0.0
 11
-777.223964
 21
-2980.95323
 31
0.0
  0
LINE
  5
9AE
  8
MARGENS
 62
     7
 10
2035.23528
 20
3405.919374
 30
0.0
 11
2035.23528
 21
-2980.95323
 31
0.0
  0
LINE
  5
9AF
  8
MARGENS
 62
     7
 10
443.383348
 20
-377.655425
 30
0.0
 11
814.627967
 21
-377.655425
 31
0.0
  0
LINE
  5
9B0
  8
MARGENS
 62
     7
 10
443.383348
 20
-1130.440672
 30
0.0
 11
814.627967
 21
-1130.440672
 31
0.0
  0
ARC
  5
9B1
  8
MARGENS
 62
     7
 10
887.277352
 20
-754.048048
 30
0.0
 40
383.339719
 50
259.075403
 51
347.301344
  0
POLYLINE
  5
9B2
  8
MARGENS
 62
     7
 66
     1
 10
0.0
 20
0.0
 30
0.0
 70
     1
  0
VERTEX
  5
BB3
  8
MARGENS
 62
     7
 10
1180.247714
 20
-658.545445
 30
0.0
  0
VERTEX
  5
BB4
  8
MARGENS
 62
     7
 10
1337.745433
 20
-658.545445
 30
0.0
  0
VERTEX
  5
BB5
  8
MARGENS
 62
     7
 10
1337.745433
 20
-838.315057
 30
0.0
  0
VERTEX
  5
BB6
  8
MARGENS
 62
     7
 10
1180.247714
 20
-838.315057
 30
0.0
  0
SEQEND
  5
BB7
  8
MARGENS
 62
     7
  0
ARC
  5
9B3
  8
MARGENS
 62
     7
 10
887.277352
 20
-754.048048
 30
0.0
 40
383.339719
 50
14.426218
 51
100.924597
  0
LINE
  5
9B4
  8
MARGENS
 62
     7
 10
814.627967
 20
-523.718235
 30
0.0
 11
179.01221
 21
-523.718235
 31
0.0
  0
POLYLINE
  5
9B5
  8
MARGENS
 62
     7
 66
     1
 10
0.0
 20
0.0
 30
0.0
 70
     1
  0
VERTEX
  5
BB8
  8
MARGENS
 62
     7
 10
21.514491
 20
-445.06903
 30
0.0
  0
VERTEX
  5
BB9
  8
MARGENS
 62
     7
 10
179.01221
 20
-445.06903
 30
0.0
  0
VERTEX
  5
BBA
  8
MARGENS
 62
     7
 10
179.01221
 20
-602.36744
 30
0.0
  0
VERTEX
  5
BBB
  8
MARGENS
 62
     7
 10
21.514491
 20
-602.36744
 30
0.0
  0
SEQEND
  5
BBC
  8
MARGENS
 62
     7
  0
LINE
  5
9B6
  8
MARGENS
 62
     7
 10
21.514491
 20
-523.718235
 30
0.0
 11
-135.983227
 21
-523.718235
 31
0.0
  0
LINE
  5
9B7
  8
MARGENS
 62
     7
 10
-135.983227
 20
-523.718235
 30
0.0
 11
-135.983227
 21
-1018.084668
 31
0.0
  0
LINE
  5
9B8
  8
MARGENS
 62
     7
 10
814.627967
 20
-1018.084668
 30
0.0
 11
179.01221
 21
-1018.084668
 31
0.0
  0
POLYLINE
  5
9B9
  8
MARGENS
 62
     7
 66
     1
 10
0.0
 20
0.0
 30
0.0
 70
     1
  0
VERTEX
  5
BBD
  8
MARGENS
 62
     7
 10
21.514491
 20
-1096.733874
 30
0.0
  0
VERTEX
  5
BBE
  8
MARGENS
 62
     7
 10
179.01221
 20
-1096.733874
 30
0.0
  0
VERTEX
  5
BBF
  8
MARGENS
 62
     7
 10
179.01221
 20
-939.435463
 30
0.0
  0
VERTEX
  5
BC0
  8
MARGENS
 62
     7
 10
21.514491
 20
-939.435463
 30
0.0
  0
SEQEND
  5
BC1
  8
MARGENS
 62
     7
  0
LINE
  5
9BA
  8
MARGENS
 62
     7
 10
21.514491
 20
-1018.084668
 30
0.0
 11
-135.983227
 21
-1018.084668
 31
0.0
  0
LINE
  5
9BB
  8
MARGENS
 62
     7
 10
-777.223964
 20
1604.292363
 30
0.0
 11
-777.223964
 21
1888.680969
 31
0.0
  0
LINE
  5
9BC
  8
MARGENS
 62
     7
 10
-777.223964
 20
2310.836894
 30
0.0
 11
2035.23528
 21
2310.836894
 31
0.0
  0
LINE
  5
9BD
  8
MARGENS
 62
     7
 10
-777.223964
 20
2310.836894
 30
0.0
 11
-777.223964
 21
3405.919374
 31
0.0
  0
LINE
  5
9BE
  8
MARGENS
 62
     7
 10
-1270.654876
 20
3405.919374
 30
0.0
 11
2035.23528
 21
3405.919374
 31
0.0
  0
LINE
  5
9BF
  8
MARGENS
 62
     7
 10
-1270.654876
 20
3405.919374
 30
0.0
 11
-1270.654876
 21
2122.893525
 31
0.0
  0
LINE
  5
9C0
  8
MARGENS
 62
     7
 10
-1270.654876
 20
3405.919374
 30
0.0
 11
-1542.951482
 21
3405.919374
 31
0.0
  0
LINE
  5
9C1
  8
MARGENS
 62
     7
 10
-1542.951482
 20
3405.919374
 30
0.0
 11
-1542.951482
 21
4451.73264
 31
0.0
  0
LINE
  5
9C2
  8
MARGENS
 62
     7
 10
-1542.951482
 20
4451.73264
 30
0.0
 11
2800.962798
 21
4451.73264
 31
0.0
  0
LINE
  5
9C4
  8
MARGENS
 62
     7
 10
2035.23528
 20
3405.919374
 30
0.0
 11
2528.666192
 21
3405.919374
 31
0.0
  0
LINE
  5
9C5
  8
MARGENS
 62
     7
 10
2528.666192
 20
3405.919374
 30
0.0
 11
2528.666192
 21
-2980.95323
 31
0.0
  0
LINE
  5
9C8
  8
MARGENS
 62
     7
 10
2800.962798
 20
3405.919374
 30
0.0
 11
2800.962798
 21
4451.73264
 31
0.0
  0
LINE
  5
9C9
  8
MARGENS
 62
     7
 10
2528.666192
 20
3405.919374
 30
0.0
 11
2800.962798
 21
3405.919374
 31
0.0
  0
LINE
  5
9CF
  8
MARGENS
 62
     7
 10
-1633.717018
 20
-5095.535207
 30
0.0
 11
2891.728333
 21
-5095.535207
 31
0.0
  0
LINE
  5
9D2
  8
MARGENS
 62
     7
 10
-777.223964
 20
2122.893525
 30
0.0
 11
-777.223964
 21
2310.836894
 31
0.0
  0
LINE
  5
9D3
  8
MARGENS
 62
     7
 10
-1270.654876
 20
1888.680969
 30
0.0
 11
-1270.654876
 21
-2980.95323
 31
0.0
  0
CIRCLE
  5
9D4
  8
MARGENS
 62
     7
 10
-591.348161
 20
2007.996796
 30
0.0
 40
79.644684
  0
POLYLINE
  5
9D5
  8
MARGENS
 62
     7
 66
     1
 10
0.0
 20
0.0
 30
0.0
 70
     1
  0
VERTEX
  5
BC2
  8
MARGENS
 62
     7
 10
-511.703477
 20
2053.979676
 30
0.0
  0
VERTEX
  5
BC3
  8
MARGENS
 62
     7
 10
-591.348161
 20
2099.962556
 30
0.0
  0
VERTEX
  5
BC4
  8
MARGENS
 62
     7
 10
-670.992845
 20
2053.979676
 30
0.0
  0
VERTEX
  5
BC5
  8
MARGENS
 62
     7
 10
-670.992845
 20
1962.013916
 30
0.0
  0
VERTEX
  5
BC6
  8
MARGENS
 62
     7
 10
-591.348161
 20
1916.031037
 30
0.0
  0
VERTEX
  5
BC7
  8
MARGENS
 62
     7
 10
-511.703477
 20
1962.013916
 30
0.0
  0
SEQEND
  5
BC8
  8
MARGENS
 62
     7
  0
LINE
  5
9D6
  8
MARGENS
 62
     7
 10
-1626.72895
 20
2122.893525
 30
0.0
 11
-356.838862
 21
2122.893525
 31
0.0
  0
LINE
  5
9D7
  8
MARGENS
 62
     7
 10
-356.838862
 20
2122.893525
 30
0.0
 11
-356.838862
 21
1888.680969
 31
0.0
  0
LINE
  5
9D8
  8
MARGENS
 62
     7
 10
-356.838862
 20
1888.680969
 30
0.0
 11
-1626.72895
 21
1888.680969
 31
0.0
  0
LINE
  5
9D9
  8
MARGENS
 62
     7
 10
-1626.72895
 20
1888.680969
 30
0.0
 11
-1626.72895
 21
2122.893525
 31
0.0
  0
CIRCLE
  5
9DD
  8
MARGENS
 62
     7
 10
-1529.872391
 20
-457.760914
 30
0.0
 40
173.978245
  0
LINE
  5
9DE
  8
MARGENS
 62
     7
 10
-1481.814305
 20
-290.551913
 30
0.0
 11
-1270.654876
 21
-290.551913
 31
0.0
  0
LINE
  5
9DF
  8
MARGENS
 62
     7
 10
-1481.814305
 20
-624.969916
 30
0.0
 11
-1270.654876
 21
-624.969916
 31
0.0
  0
LINE
  5
9E0
  8
MARGENS
 62
     7
 10
-1529.872391
 20
-283.782669
 30
0.0
 11
-1529.872391
 21
1888.680969
 31
0.0
  0
LINE
  5
9E2
  8
MARGENS
 62
     7
 10
4776.171699
 20
-748.430251
 30
0.0
 11
4776.171699
 21
-513.398171
 31
0.0
  0
LINE
  5
9E3
  8
MARGENS
 62
     7
 10
4776.171699
 20
-513.398171
 30
0.0
 11
5984.118052
 21
-513.398171
 31
0.0
  0
LINE
  5
9E5
  8
MARGENS
 62
     7
 10
6376.389309
 20
-90.281349
 30
0.0
 11
6376.389309
 21
-983.527976
 31
0.0
  0
LINE
  5
9E6
  8
MARGENS
 62
     7
 10
6376.389309
 20
-983.527976
 30
0.0
 11
6988.332445
 21
-497.727184
 31
0.0
  0
LINE
  5
9E7
  8
MARGENS
 62
     7
 10
6988.332445
 20
-497.727184
 30
0.0
 11
6376.389309
 21
-90.281349
 31
0.0
  0
LINE
  5
9E8
  8
MARGENS
 62
     7
 10
5984.118052
 20
129.112556
 30
0.0
 11
7239.386034
 21
129.112556
 31
0.0
  0
LINE
  5
9E9
  8
MARGENS
 62
     7
 10
7239.386034
 20
129.112556
 30
0.0
 11
7239.386034
 21
-1155.908899
 31
0.0
  0
LINE
  5
9EA
  8
MARGENS
 62
     7
 10
7239.386034
 20
-1155.908899
 30
0.0
 11
5984.118052
 21
-1155.908899
 31
0.0
  0
LINE
  5
9EB
  8
MARGENS
 62
     7
 10
5984.118052
 20
-1155.908899
 30
0.0
 11
5984.118052
 21
129.112556
 31
0.0
  0
LINE
  5
A01
  8
MARGENS
 62
     7
 10
7239.386034
 20
-2742.337433
 30
0.0
 11
5984.118052
 21
-2742.337433
 31
0.0
  0
LINE
  5
A02
  8
MARGENS
 62
     7
 10
5984.118052
 20
-1457.315978
 30
0.0
 11
7239.386034
 21
-1457.315978
 31
0.0
  0
LINE
  5
A03
  8
MARGENS
 62
     7
 10
6988.332445
 20
-2084.155719
 30
0.0
 11
6376.389309
 21
-1676.709883
 31
0.0
  0
LINE
  5
A04
  8
MARGENS
 62
     7
 10
6376.389309
 20
-2569.956511
 30
0.0
 11
6988.332445
 21
-2084.155719
 31
0.0
  0
LINE
  5
A05
  8
MARGENS
 62
     7
 10
5984.118052
 20
-2742.337433
 30
0.0
 11
5984.118052
 21
-1457.315978
 31
0.0
  0
LINE
  5
A06
  8
MARGENS
 62
     7
 10
6376.389309
 20
-1676.709883
 30
0.0
 11
6376.389309
 21
-2569.956511
 31
0.0
  0
LINE
  5
A07
  8
MARGENS
 62
     7
 10
7239.386034
 20
-1457.315978
 30
0.0
 11
7239.386034
 21
-2742.337433
 31
0.0
  0
LINE
  5
A08
  8
MARGENS
 62
     7
 10
7239.386034
 20
-4328.765968
 30
0.0
 11
5984.118052
 21
-4328.765968
 31
0.0
  0
LINE
  5
A09
  8
MARGENS
 62
     7
 10
5984.118052
 20
-3043.744513
 30
0.0
 11
7239.386034
 21
-3043.744513
 31
0.0
  0
LINE
  5
A0A
  8
MARGENS
 62
     7
 10
6988.332445
 20
-3670.584253
 30
0.0
 11
6376.389309
 21
-3263.138418
 31
0.0
  0
LINE
  5
A0B
  8
MARGENS
 62
     7
 10
6376.389309
 20
-4156.385046
 30
0.0
 11
6988.332445
 21
-3670.584253
 31
0.0
  0
LINE
  5
A0C
  8
MARGENS
 62
     7
 10
5984.118052
 20
-4328.765968
 30
0.0
 11
5984.118052
 21
-3043.744513
 31
0.0
  0
LINE
  5
A0D
  8
MARGENS
 62
     7
 10
6376.389309
 20
-3263.138418
 30
0.0
 11
6376.389309
 21
-4156.385046
 31
0.0
  0
LINE
  5
A0E
  8
MARGENS
 62
     7
 10
7239.386034
 20
-3043.744513
 30
0.0
 11
7239.386034
 21
-4328.765968
 31
0.0
  0
LINE
  5
A0F
  8
MARGENS
 62
     7
 10
7239.386034
 20
350.350386
 30
0.0
 11
5984.118052
 21
350.350386
 31
0.0
  0
LINE
  5
A10
  8
MARGENS
 62
     7
 10
5984.118052
 20
1635.371841
 30
0.0
 11
7239.386034
 21
1635.371841
 31
0.0
  0
LINE
  5
A11
  8
MARGENS
 62
     7
 10
6988.332445
 20
1008.5321
 30
0.0
 11
6376.389309
 21
1415.977936
 31
0.0
  0
LINE
  5
A12
  8
MARGENS
 62
     7
 10
6376.389309
 20
522.731308
 30
0.0
 11
6988.332445
 21
1008.5321
 31
0.0
  0
LINE
  5
A13
  8
MARGENS
 62
     7
 10
5984.118052
 20
350.350386
 30
0.0
 11
5984.118052
 21
1635.371841
 31
0.0
  0
LINE
  5
A14
  8
MARGENS
 62
     7
 10
6376.389309
 20
1415.977936
 30
0.0
 11
6376.389309
 21
522.731308
 31
0.0
  0
LINE
  5
A15
  8
MARGENS
 62
     7
 10
7239.386034
 20
1635.371841
 30
0.0
 11
7239.386034
 21
350.350386
 31
0.0
  0
LINE
  5
A20
  8
MARGENS
 62
     7
 10
-2224.51582
 20
-5425.893722
 30
0.0
 11
8442.338465
 21
-5425.893722
 31
0.0
  0
LINE
  5
A21
  8
MARGENS
 62
     7
 10
8442.338465
 20
-5425.893722
 30
0.0
 11
8442.338465
 21
-2921.371725
 31
0.0
  0
LINE
  5
A23
  8
MARGENS
 62
     7
 10
-135.983227
 20
-523.718235
 30
0.0
 11
-573.550416
 21
-523.718235
 31
0.0
  0
LINE
  5
A2B
  8
MARGENS
 62
     7
 10
5984.118052
 20
-3686.255241
 30
0.0
 11
3701.151802
 21
-3686.255241
 31
0.0
  0
LINE
  5
A2C
  8
MARGENS
 62
     7
 10
-573.550416
 20
-523.718235
 30
0.0
 11
-573.550416
 21
-1819.267307
 31
0.0
  0
LINE
  5
A2E
  8
MARGENS
 62
     7
 10
-135.983227
 20
-1018.084668
 30
0.0
 11
-375.652383
 21
-1018.084668
 31
0.0
  0
LINE
  5
A2F
  8
MARGENS
 62
     7
 10
-375.652383
 20
-1018.084668
 30
0.0
 11
-375.652383
 21
-1474.540561
 31
0.0
  0
LINE
  5
A35
  8
MARGENS
 62
     7
 10
5984.118052
 20
992.861113
 30
0.0
 11
4776.171699
 21
992.861113
 31
0.0
  0
LINE
  5
A3A
  8
MARGENS
 62
     7
 10
9718.106773
 20
624.377085
 30
0.0
 11
11100.412476
 21
624.377085
 31
0.0
  0
LINE
  5
A3B
  8
MARGENS
 62
     7
 10
11149.412476
 20
575.377085
 30
0.0
 11
11149.412476
 21
-596.825421
 31
0.0
  0
LINE
  5
A3C
  8
MARGENS
 62
     7
 10
11100.412476
 20
-645.825421
 30
0.0
 11
9718.106773
 21
-645.825421
 31
0.0
  0
LINE
  5
A3D
  8
MARGENS
 62
     7
 10
9669.106773
 20
-596.825421
 30
0.0
 11
9669.106773
 21
575.377085
 31
0.0
  0
POLYLINE
  5
A3F
  8
MARGENS
 62
     7
 66
     1
 10
0.0
 20
0.0
 30
0.0
 70
     1
  0
VERTEX
  5
BC9
  8
MARGENS
 62
     7
 10
9843.203027
 20
478.616136
 30
0.0
  0
VERTEX
  5
BCA
  8
MARGENS
 62
     7
 10
10975.316222
 20
478.616136
 30
0.0
 42
-0.414214
  0
VERTEX
  5
BCB
  8
MARGENS
 62
     7
 10
11024.316222
 20
429.616136
 30
0.0
  0
VERTEX
  5
BCC
  8
MARGENS
 62
     7
 10
11024.316222
 20
-461.475975
 30
0.0
 42
-0.414214
  0
VERTEX
  5
BCD
  8
MARGENS
 62
     7
 10
10975.316222
 20
-510.475975
 30
0.0
  0
VERTEX
  5
BCE
  8
MARGENS
 62
     7
 10
9843.203027
 20
-510.475975
 30
0.0
 42
-0.414214
  0
VERTEX
  5
BCF
  8
MARGENS
 62
     7
 10
9794.203027
 20
-461.475975
 30
0.0
  0
VERTEX
  5
BD0
  8
MARGENS
 62
     7
 10
9794.203027
 20
429.616136
 30
0.0
 42
-0.414214
  0
SEQEND
  5
BD1
  8
MARGENS
 62
     7
  0
ARC
  5
A46
  8
MARGENS
 62
     7
 10
11100.412476
 20
575.377085
 30
0.0
 40
49.0
 50
0.0
 51
90.0
  0
ARC
  5
A47
  8
MARGENS
 62
     7
 10
9718.106773
 20
575.377085
 30
0.0
 40
49.0
 50
90.0
 51
180.0
  0
ARC
  5
A48
  8
MARGENS
 62
     7
 10
9718.106773
 20
-596.825421
 30
0.0
 40
49.0
 50
180.0
 51
270.0
  0
ARC
  5
A49
  8
MARGENS
 62
     7
 10
11100.412476
 20
-596.825421
 30
0.0
 40
49.0
 50
270.0
 51
0.0
  0
POLYLINE
  5
A4A
  8
MARGENS
 62
     7
 66
     1
 10
0.0
 20
0.0
 30
0.0
 70
     1
  0
VERTEX
  5
BD2
  8
MARGENS
 62
     7
 10
9597.688158
 20
-833.178817
 30
0.0
  0
VERTEX
  5
BD3
  8
MARGENS
 62
     7
 10
11236.385775
 20
-833.178817
 30
0.0
  0
VERTEX
  5
BD4
  8
MARGENS
 62
     7
 10
11334.385775
 20
-1127.178817
 30
0.0
  0
VERTEX
  5
BD5
  8
MARGENS
 62
     7
 10
11334.385775
 20
-1155.926832
 30
0.0
  0
VERTEX
  5
BD6
  8
MARGENS
 62
     7
 10
9499.688158
 20
-1155.926832
 30
0.0
  0
VERTEX
  5
BD7
  8
MARGENS
 62
     7
 10
9499.688158
 20
-1127.178817
 30
0.0
  0
SEQEND
  5
BD8
  8
MARGENS
 62
     7
  0
POLYLINE
  5
A68
  8
MARGENS
 62
     7
 66
     1
 10
0.0
 20
0.0
 30
0.0
 70
     1
  0
VERTEX
  5
BD9
  8
MARGENS
 62
     7
 10
9881.367742
 20
-645.825421
 30
0.0
  0
VERTEX
  5
BDA
  8
MARGENS
 62
     7
 10
10936.549298
 20
-645.825421
 30
0.0
  0
VERTEX
  5
BDB
  8
MARGENS
 62
     7
 10
10936.549298
 20
-833.178817
 30
0.0
  0
VERTEX
  5
BDC
  8
MARGENS
 62
     7
 10
9881.367742
 20
-833.178817
 30
0.0
  0
SEQEND
  5
BDD
  8
MARGENS
 62
     7
  0
POLYLINE
  5
A69
  8
MARGENS
 62
     7
 66
     1
 10
0.0
 20
0.0
 30
0.0
 70
     1
  0
VERTEX
  5
BDE
  8
MARGENS
 62
     7
 10
8621.547979
 20
631.82608
 30
0.0
  0
VERTEX
  5
BDF
  8
MARGENS
 62
     7
 10
9293.027135
 20
631.82608
 30
0.0
  0
VERTEX
  5
BE0
  8
MARGENS
 62
     7
 10
9293.027135
 20
-1199.09871
 30
0.0
  0
VERTEX
  5
BE1
  8
MARGENS
 62
     7
 10
8621.547979
 20
-1199.09871
 30
0.0
  0
SEQEND
  5
BE2
  8
MARGENS
 62
     7
  0
POLYLINE
  5
A6A
  8
MARGENS
 62
     7
 66
     1
 10
0.0
 20
0.0
 30
0.0
 70
     1
  0
VERTEX
  5
BE3
  8
MARGENS
 62
     7
 10
8738.790359
 20
504.087146
 30
0.0
  0
VERTEX
  5
BE4
  8
MARGENS
 62
     7
 10
9175.784755
 20
504.087146
 30
0.0
  0
VERTEX
  5
BE5
  8
MARGENS
 62
     7
 10
9175.784755
 20
418.92785
 30
0.0
  0
VERTEX
  5
BE6
  8
MARGENS
 62
     7
 10
8738.790359
 20
418.92785
 30
0.0
  0
SEQEND
  5
BE7
  8
MARGENS
 62
     7
  0
POLYLINE
  5
A6B
  8
MARGENS
 62
     7
 66
     1
 10
0.0
 20
0.0
 30
0.0
 70
     1
  0
VERTEX
  5
BE8
  8
MARGENS
 62
     7
 10
8664.181564
 20
25.066122
 30
0.0
  0
VERTEX
  5
BE9
  8
MARGENS
 62
     7
 10
8962.616762
 20
25.066122
 30
0.0
  0
VERTEX
  5
BEA
  8
MARGENS
 62
     7
 10
8962.616762
 20
-28.158433
 30
0.0
  0
VERTEX
  5
BEB
  8
MARGENS
 62
     7
 10
8664.181564
 20
-28.158433
 30
0.0
  0
SEQEND
  5
BEC
  8
MARGENS
 62
     7
  0
POLYLINE
  5
A6C
  8
MARGENS
 62
     7
 66
     1
 10
0.0
 20
0.0
 30
0.0
 70
     1
  0
VERTEX
  5
BED
  8
MARGENS
 62
     7
 10
8674.839973
 20
-102.672812
 30
0.0
  0
VERTEX
  5
BEE
  8
MARGENS
 62
     7
 10
8951.958353
 20
-102.672812
 30
0.0
  0
VERTEX
  5
BEF
  8
MARGENS
 62
     7
 10
8951.958353
 20
-155.897376
 30
0.0
  0
VERTEX
  5
BF0
  8
MARGENS
 62
     7
 10
8674.839973
 20
-155.897376
 30
0.0
  0
SEQEND
  5
BF1
  8
MARGENS
 62
     7
  0
POLYLINE
  5
A6D
  8
MARGENS
 62
     7
 66
     1
 10
0.0
 20
0.0
 30
0.0
 70
     1
  0
VERTEX
  5
BF2
  8
MARGENS
 62
     7
 10
8951.958353
 20
-368.795606
 30
0.0
  0
VERTEX
  5
BF3
  8
MARGENS
 62
     7
 10
9239.735141
 20
-368.795606
 30
0.0
  0
VERTEX
  5
BF4
  8
MARGENS
 62
     7
 10
9239.735141
 20
-507.179457
 30
0.0
  0
VERTEX
  5
BF5
  8
MARGENS
 62
     7
 10
8951.958353
 20
-507.179457
 30
0.0
  0
SEQEND
  5
BF6
  8
MARGENS
 62
     7
  0
LINE
  5
A6F
  8
MARGENS
 62
     7
 10
8442.338465
 20
-2921.371725
 30
0.0
 11
8442.338465
 21
-722.026151
 31
0.0
  0
LINE
  5
A70
  8
MARGENS
 62
     7
 10
8442.338465
 20
-722.026151
 30
0.0
 11
8589.416932
 21
-722.026151
 31
0.0
  0
LINE
  5
A72
  8
MARGENS
 62
     7
 10
8110.876536
 20
-3686.255241
 30
0.0
 11
8110.876536
 21
-483.05875
 31
0.0
  0
LINE
  5
A73
  8
MARGENS
 62
     7
 10
8110.876536
 20
-483.05875
 30
0.0
 11
8589.416932
 21
-483.05875
 31
0.0
  0
LINE
  5
A75
  8
MARGENS
 62
     7
 10
7849.854518
 20
-2099.826706
 30
0.0
 11
7849.854518
 21
-265.815649
 31
0.0
  0
LINE
  5
A76
  8
MARGENS
 62
     7
 10
7849.854518
 20
-265.815649
 30
0.0
 11
8589.416932
 21
-265.815649
 31
0.0
  0
LINE
  5
A79
  8
MARGENS
 62
     7
 10
7632.33614
 20
-513.398171
 30
0.0
 11
7632.33614
 21
-135.469788
 31
0.0
  0
LINE
  5
A7A
  8
MARGENS
 62
     7
 10
7632.33614
 20
-135.469788
 30
0.0
 11
8589.416932
 21
-135.469788
 31
0.0
  0
LINE
  5
A7C
  8
MARGENS
 62
     7
 10
7741.095311
 20
992.861113
 30
0.0
 11
7741.095311
 21
103.497613
 31
0.0
  0
LINE
  5
A7D
  8
MARGENS
 62
     7
 10
7741.095311
 20
103.497613
 30
0.0
 11
8589.416932
 21
103.497613
 31
0.0
  0
ARC
  5
A7E
  8
MARGENS
 62
     7
 10
9546.888453
 20
-633.921451
 30
0.0
 40
254.83773
 50
185.017196
 51
277.437553
  0
ARC
  5
A7F
  8
MARGENS
 62
     7
 10
9544.72664
 20
-662.6902
 30
0.0
 40
264.368232
 50
197.809398
 51
273.200662
  0
LINE
  5
A8A
  8
MARGENS
 62
     7
 10
4776.171699
 20
992.861113
 30
0.0
 11
4776.171699
 21
1317.784545
 31
0.0
  0
LINE
  5
A8B
  8
MARGENS
 62
     7
 10
3701.151802
 20
-1819.267307
 30
0.0
 11
3701.151802
 21
-2099.826706
 31
0.0
  0
LINE
  5
A8C
  8
MARGENS
 62
     7
 10
-1703.850636
 20
-457.760914
 30
0.0
 11
-2224.51582
 21
-457.760914
 31
0.0
  0
LINE
  5
A8D
  8
MARGENS
 62
     7
 10
-2224.51582
 20
-457.760914
 30
0.0
 11
-2224.51582
 21
-5425.893722
 31
0.0
  0
LINE
  5
A8E
  8
MARGENS
 62
     7
 10
3701.151802
 20
-2099.826706
 30
0.0
 11
3701.151802
 21
-3686.255241
 31
0.0
  0
LINE
  5
A90
  8
MARGENS
 62
     7
 10
4205.19924
 20
-1474.540561
 30
0.0
 11
4205.19924
 21
-2099.826706
 31
0.0
  0
LINE
  5
A91
  8
MARGENS
 62
     7
 10
5984.118052
 20
-2099.826706
 30
0.0
 11
4205.19924
 21
-2099.826706
 31
0.0
  0
LINE
  5
A92
  8
MARGENS
 62
     7
 10
7239.386034
 20
992.861113
 30
0.0
 11
7741.095311
 21
992.861113
 31
0.0
  0
LINE
  5
A93
  8
MARGENS
 62
     7
 10
7239.386034
 20
-513.398171
 30
0.0
 11
7632.33614
 21
-513.398171
 31
0.0
  0
LINE
  5
A94
  8
MARGENS
 62
     7
 10
7239.386034
 20
-2099.826706
 30
0.0
 11
7849.854518
 21
-2099.826706
 31
0.0
  0
LINE
  5
A95
  8
MARGENS
 62
     7
 10
7239.386034
 20
-3686.255241
 30
0.0
 11
8110.876536
 21
-3686.255241
 31
0.0
  0
LINE
  5
A97
  8
MARGENS
 62
     7
 10
899.001745
 20
-2980.95323
 30
0.0
 11
2891.728333
 21
-2980.95323
 31
0.0
  0
LINE
  5
A98
  8
MARGENS
 62
     7
 10
359.009571
 20
-2980.95323
 30
0.0
 11
-1633.717018
 21
-2980.95323
 31
0.0
  0
LINE
  5
A99
  8
MARGENS
 62
     7
 10
359.009571
 20
-2980.95323
 30
0.0
 11
899.001745
 21
-2980.95323
 31
0.0
  0
LINE
  5
A9A
  8
MARGENS
 62
     7
 10
2891.728333
 20
-5095.535207
 30
0.0
 11
2891.728333
 21
-2980.95323
 31
0.0
  0
LINE
  5
A9B
  8
MARGENS
 62
     7
 10
-1633.717018
 20
-5095.535207
 30
0.0
 11
-1633.717018
 21
-2980.95323
 31
0.0
  0
LINE
  5
A9C
  8
MARGENS
 62
     7
 10
-573.550416
 20
-1819.267307
 30
0.0
 11
3701.151802
 21
-1819.267307
 31
0.0
  0
LINE
  5
A9D
  8
MARGENS
 62
     7
 10
-375.652383
 20
-1474.540561
 30
0.0
 11
4205.19924
 21
-1474.540561
 31
0.0
  0
LINE
  5
A9E
  8
MARGENS
 62
     7
 10
1337.745433
 20
-748.430251
 30
0.0
 11
4776.171699
 21
-748.430251
 31
0.0
  0
LINE
  5
A9F
  8
MARGENS
 62
     7
 10
1090.248972
 20
1317.784545
 30
0.0
 11
4776.171699
 21
1317.784545
 31
0.0
  0
POLYLINE
  8
0
  5
BF8
  62
7
  66
     1
 10
0.000000
 20
0.000000
 30
0.000000
  70
     8
  0
VERTEX
  8
0
  5
BF9
 10
2404.82
 20
4032.81
 30
0.000000
  70
    32
  0
VERTEX
  8
0
  5
BFA
 10
4982.49
 20
5413.28
 30
0.000000
  70
    32
  0
VERTEX
  8
0
  5
BFB
 10
5692.71
 20
5786.39
 30
0.000000
  70
    32
  0
VERTEX
  8
0
  5
BFC
 10
5842.71
 20
5786.39
 30
0.000000
  70
    32
  0
SEQEND
  8
0
  5
BFD
  0
TEXT
  8
0
  40
300
  5
BFE
  62
7
  72
0
  71
0
 10
5843.71
 20
5659.56
 30
0.000000
  1
Máquina de ensaios Kratos K10000
  0
POLYLINE
  8
0
  5
BFF
  62
7
  66
     1
 10
0.000000
 20
0.000000
 30
0.000000
  70
     8
  0
VERTEX
  8
0
  5
C00
 10
-1523.22
 20
-466.725
 30
0.000000
  70
    32
  0
VERTEX
  8
0
  5
C01
 10
-2433.48
 20
437.077
 30
0.000000
  70
    32
  0
VERTEX
  8
0
  5
C02
 10
-2583.48
 20
437.077
 30
0.000000
  70
    32
  0
SEQEND
  8
0
  5
C03
  0
TEXT
  8
0
  40
300
  5
C04
  62
7
  72
0
  71
0
 10
-2584.48
 20
203.193
 30
0.000000
  1
Sensor de Deslocamento
  0
POLYLINE
  8
0
  5
C05
  62
7
  66
     1
 10
0.000000
 20
0.000000
 30
0.000000
  70
     8
  0
VERTEX
  8
0
  5
C06
 10
-135.983
 20
-770.901
 30
0.000000
  70
    32
  0
VERTEX
  8
0
  5
C07
 10
-2690.51
 20
-3265.76
 30
0.000000
  70
    32
  0
VERTEX
  8
0
  5
C08
 10
-2840.51
 20
-3265.76
 30
0.000000
  70
    32
  0
SEQEND
  8
0
  5
C09
  0
TEXT
  8
0
  40
300
  5
C0A
  62
7
  72
0
  71
0
 10
-2841.51
 20
-3201.38
 30
0.000000
  1
Extensômetro duplo 
  0
TEXT
  8
0
  40
300
  5
C0B
  62
7
  72
0
  71
0
 10
-2841.51
 20
-3591.38
 30
0.000000
  1
para largura (clipgage)
  0
POLYLINE
  8
0
  5
C0C
  62
7
  66
     1
 10
0.000000
 20
0.000000
 30
0.000000
  70
     8
  0
VERTEX
  8
0
  5
C0D
 10
1239.88
 20
-630.367
 30
0.000000
  70
    32
  0
VERTEX
  8
0
  5
C0E
 10
2889.11
 20
2093.01
 30
0.000000
  70
    32
  0
VERTEX
  8
0
  5
C0F
 10
3039.11
 20
2093.01
 30
0.000000
  70
    32
  0
SEQEND
  8
0
  5
C10
  0
TEXT
  8
0
  40
300
  5
C11
  62
7
  72
0
  71
0
 10
3040.11
 20
2157.39
 30
0.000000
  1
Extensômetro para
  0
TEXT
  8
0
  40
300
  5
C12
  62
7
  72
0
  71
0
 10
3040.11
 20
1767.39
 30
0.000000
  1
alongamento (clipgage)
  0
POLYLINE
  8
0
  5
C13
  62
7
  66
     1
 10
0.000000
 20
0.000000
 30
0.000000
  70
     8
  0
VERTEX
  8
0
  5
C14
 10
404.529
 20
1359.12
 30
0.000000
  70
    32
  0
VERTEX
  8
0
  5
C15
 10
-2304.96
 20
2798.97
 30
0.000000
  70
    32
  0
VERTEX
  8
0
  5
C16
 10
-2454.96
 20
2798.97
 30
0.000000
  70
    32
  0
SEQEND
  8
0
  5
C17
  0
TEXT
  8
0
  40
300
  5
C18
  62
7
  72
0
  71
0
 10
-2455.96
 20
2606.63
 30
0.000000
  1
Célula de Carga
  0
TEXT
  8
0
  40
300
  5
C19
  62
7
  72
0
  71
0
 10
8472.09
 20
1896.45
 30
0.000000
  1
Microcomputador com
  0
TEXT
  8
0
  40
300
  5
C1A
  62
7
  72
0
  71
0
 10
8472.09
 20
1506.45
 30
0.000000
  1
   placa de aquisição 
  0
TEXT
  8
0
  40
300
  5
C1B
  62
7
  72
0
  71
0
 10
8472.09
 20
1116.45
 30
0.000000
  1
         de dados
  0
LINE
  5
B4A
  8
MARGENS
 62
     7
 10
9499.688158
 20
-1127.178817
 30
0.0
 11
11334.385775
 21
-1127.178817
 31
0.0
  0
POLYLINE
  8
0
  5
C1C
  62
7
  66
     1
 10
0.000000
 20
0.000000
 30
0.000000
  70
     8
  0
VERTEX
  8
0
  5
C1D
 10
268.841
 20
2068.36
 30
0.000000
  70
    32
  0
VERTEX
  8
0
  5
C1E
 10
-2408.69
 20
4674.86
 30
0.000000
  70
    32
  0
VERTEX
  8
0
  5
C1F
 10
-2558.69
 20
4674.86
 30
0.000000
  70
    32
  0
SEQEND
  8
0
  5
C20
  0
TEXT
  8
0
  40
300
  5
C21
  62
7
  72
0
  71
0
 10
-2559.69
 20
4439.13
 30
0.000000
  1
Travessão móvel
  0
POLYLINE
  8
0
  5
C22
  62
7
  66
     1
 10
0.000000
 20
0.000000
 30
0.000000
  70
     8
  0
VERTEX
  8
0
  5
C23
 10
493.758
 20
-2681.02
 30
0.000000
  70
    32
  0
VERTEX
  8
0
  5
C24
 10
-2954.92
 20
-5114.55
 30
0.000000
  70
    32
  0
VERTEX
  8
0
  5
C25
 10
-3104.92
 20
-5114.55
 30
0.000000
  70
    32
  0
SEQEND
  8
0
  5
C26
  0
TEXT
  8
0
  40
300
  5
C27
  62
7
  72
0
  71
0
 10
-3105.92
 20
-5348.44
 30
0.000000
  1
Garra Fixa
  0
POLYLINE
  8
0
  5
C28
  62
7
  66
     1
 10
0.000000
 20
0.000000
 30
0.000000
  70
     8
  0
VERTEX
  8
0
  5
C29
 10
558.020
 20
752.654
 30
0.000000
  70
    32
  0
VERTEX
  8
0
  5
C2A
 10
-3137.05
 20
1656.52
 30
0.000000
  70
    32
  0
SEQEND
  8
0
  5
C2B
  0
TEXT
  8
0
  40
300
  5
C2C
  62
7
  72
0
  71
0
 10
-3138.05
 20
1422.64
 30
0.000000
  1
Garra Móvel
  0
LINE
  5
B53
  8
MARGENS
 62
     7
 10
9615.69378
 20
-896.89551
 30
0.0
 11
11211.881436
 21
-896.89551
 31
0.0
  0
LINE
  5
B54
  8
MARGENS
 62
     7
 10
9577.68935
 20
-950.034445
 30
0.0
 11
11246.085423
 21
-950.034445
 31
0.0
  0
LINE
  5
B55
  8
MARGENS
 62
     7
 10
9554.886639
 20
-1025.947178
 30
0.0
 11
11276.48902
 21
-1025.947178
 31
0.0
  0
LINE
  5
B56
  8
MARGENS
 62
     7
 10
9528.283538
 20
-1094.268655
 30
0.0
 11
11306.892565
 21
-1094.268655
 31
0.0
  0
ENDSEC
  0
EOF
